Intruder Alert (Banda sonora)

From Team Fortress Wiki
Jump to: navigation, search
Team Fortress 2
Bandas sonoras originales
  1. "Team Fortress 2 (Tema principal)"
  2. "Playing with Danger"
  3. "Rocket Jump Waltz"
  4. "The Art of War"
  5. "Faster than a Speeding Bullet"
  6. "Right behind you"
  7. "Petite Chou-Fleur"
  8. "Intruder Alert"
  9. "Drunken Pipe Bomb"
  10. "More Gun"
  11. "Haunted Fortress 2"
  12. "TF2 Saxxy 2011"
  13. "A little heart to heart"
  14. "MEDIC!"
  15. "Archimedes"
  16. "Dreams of Cruelty"
  17. "The calm"
  18. "ROBOTS!"
  19. "Dapper Cadaver"
  20. "Rise of the Living Bread"
  21. "Red Bread"
  22. "Three days to live"
  23. "Seduce Me!"
  24. "Stink Lines"
  25. "It hates me so much"
  26. "Misfortune Teller"
  27. "Soldier of Dance"
  28. "RED triumphs!"
  29. "BLU triumphs!"
  30. "Yeti park"
  31. "Saxton's Dillema"
  32. "Mercenary Park"
  33. "Saluting the Fallen"

La canción Intruder Alert se escucha (de forma truncada) durante la secuencia inicial del vídeo Conoce al Spy, siendo también una de las quince diferentes canciones del menú principal. Fue la quinta melodía que se añadió al juego vía parche tras el lanzamiento del mismo.

Vídeos

Formato MIDI

Transcripción de la guitarra

El siguiente texto es una interpretación de la partitura de guitarra de esta canción.

Intruder Alert     
                     
4/4 | Tempo = 90

(c) Mike Morasky / VALVe 2007   

	
                                              
    Mi
e ||--------------------------|--------------------------|--------------------------|--------------------------|
B ||--------------------------|--------------------------|--------------------------|--------------------------|
G ||--------------------------|--------------------------|--------------------------|--------------------------|
D ||--------------------------|--------------------------|--------------------------|--------------------------|
A ||--------------------------|--------------------------|--------------------------|--------------------------|
E ||--0--0--0--3--3--3--0--0--|--0--7--7--7--5--5--6--7--|--0--0--0--3--3--3--0--0--|--0--7--7--7--6--6--5--5--|
                                   
      

    La
    --------------------------|--------------------------|--------------------------|--------------------------|
    --------------------------|--------------------------|--------------------------|--------------------------|
    --------------------------|--------------------------|--------------------------|--------------------------|
    --------------------------|--------------------------|--------------------------|--------------------------|
    --0--0--0--3--3--3--0--0--|--0--7--7--7--5--5--6--7--|--0--0--0--3--3--3--0--0--|--0--7--7--7--6--6--5--5--|
    --------------------------|--------------------------|--------------------------|--------------------------|

      

    Mi
    --------------------------|--------------------------|--------------------------|--------------------------|
    --------------------------|--------------------------|--------------------------|--------------------------|
    --------------------------|--------------------------|--------------------------|--------------------------|
    --------------------------|--------------------------|--------------------------|--------------------------|
    --------------------------|--------------------------|--------------------------|--------------------------|
    --7--7--7--6--6--6--5--5--|--5--3--3--3--2--2--1--1--|--0--0--0--3--3--3--0--0--|--0--7--7--7--5--5--6--7--|

      
    La                                                    Escala cromática
    --------------------------|--------------------------|--------------------------|--------------------------|
    --------------------------|--------------------------|--------------------------|--------------------------|
    --------------------------|--------------------------|--------------------------|--------------------------|
    --------------------------|--------------------------|--------------------------|--------------------------|
    --------------------------|--------------------------|--------------------------|--------------------------|
    --0--0--0--3--3--3--0--0--|--0--7--7--7--5--5--6--7--|--0--0--0--1--1--1--2--2--|--2--3--3--3--5--5--6--7--|


Historial de Actualización

Parche del 17 de diciembre de 2009 (Actualización ¡GUERRA!)

  • Esta canción se añade en el menú principal.

Parche del 9 de mayo de 2011

  • [Sin documentar] Se ha añadido el archivo con el formato midi de 'Intruder Alert'.