More Gun (사운드트랙)

From Team Fortress Wiki
Jump to: navigation, search
Team Fortress 2
공식 사운드트랙
  1. "Team Fortress 2 (메인 테마)"
  2. "Playing With Danger"
  3. "Rocket Jump Waltz"
  4. "The Art of War"
  5. "Faster Than a Speeding Bullet"
  6. "Right Behind You"
  7. "Petite Chou-Fleur"
  8. "Intruder Alert"
  9. "Drunken Pipe Bomb"
  10. "More Gun"
  11. "Haunted Fortress 2"
  12. "TF2 Saxxy 2011 Theme"
  13. "A Little Heart to Heart"
  14. "MEDIC!"
  15. "Archimedes"
  16. "Dreams of Cruelty"
  17. "The Calm"
  18. "ROBOTS!"
  19. "Dapper Cadaver"
  20. "Rise of the Living Bread"
  21. "Red Bread"
  22. "Three Days to Live"
  23. "Seduce Me!"
  24. "Stink Lines"
  25. "It Hates Me So Much"
  26. "Misfortune Teller"
  27. "Soldier of Dance"
  28. "RED Triumphs!"
  29. "BLU Triumphs!"
  30. "Yeti Park"
  31. "Saxton's Dillema(sic)"
  32. "Mercenary Park"

More Gun엔지니어엔지니어를 만나다에서 자신의 기타로 연주하는 곡입니다. 오리지널 버젼은 엔지니어 업데이트 당시에 공개되었지만, 업데이트 되기전에 2번이나 사용되었습니다.

More Gun은 미국 컨트리 밴드 Wilco의 앨범 Being There의 "Someone Else's Song"에 기초하고 있습니다. 이 트랙의 커버는 포커나이트 앳 인벤토리에서도 찾을 수 있습니다.

변화

2010년 7월 8일 패치

오리지널 곡이 공개됨.

2010년 7월 13일 패치

Wilco의 노래에 약간의 편집을 함, 하모니카, 기차 소리, 기타 솔로에 일렉트릭 기타를 추가함.

2010년 8월 17일 패치

Valve가 새버젼을 추가함, 기차 인트로를 제거하고, 하모니카에 아코디언을 추가함.(기타가 바뀜.) 이 버젼이 엔지니어를 만나다에서 사용 된적 없음.

기타 악보

이것은 이 음악의 기타 악보입니다. The Engineer is rendered taking pretty exact chord fingerings, which have been examined here.

Engineer's Song     
                    | Legend:
time = 3/4 160bpm   | -------
Standard E-tuning   | Q - quarter note
                    | E - 8th note
Copyright (c) 2008  | h - 해머 온
Antti Kiviranta     | p - 풀 오프
Published for educational purposes under the GFDL.  Modified by RJackson on behalf of the Team Fortress Wiki.
                  

					A major
    Q    Q    Q       Q     E    E    E    E      Q     E    E    E    E      Q     E    E    E    E    
||-----------------|--------0----0----0----0---|--------0----0----0----0---|--------0----0----0----0---|
||-----------------|--------2----2----2----2---|--------2----2----2----2---|--------2----2----2----2---|
||-----------------|--------2----2----2----2---|--------2----2----2----2---|--------2----2----2----2---|
||-----------------|-------(2)--(2)--(2)--(2)--|-------(2)--(2)--(2)--(2)--|-------(2)--(2)--(2)--(2)--|
||-----------------|--0------------------------|---------------------------|--0------------------------|
||--0----2----4----|---------------------------|--0------------------------|---------------------------|

                     A Major
 Hey look buddy...   I'm an Engineer             And that means I solve problems
   Q    Q    Q       Q     E    E    E    E      Q     E    E    E    E      Q     E    E    E    E    
|-----------------|--------0----0----0----0---|--------0----0----0----0---|--------0----0----0----0---|
|-----------------|--------2----2----2----2---|--------2----2----2----2---|--------2----2----2----2---|
|-----------------|-------(2)--(2)--(2)--(2)--|-------(2)--(2)--(2)--(2)--|-------(2)--(2)--(2)--(2)--|
|-----------------|--------2----2----2----2---|--------2----2----2----2---|--------2----2----2----2---|
|-----------------|--0------------------------|---------------------------|--0------------------------|
|--0----2----4----|---------------------------|--0------------------------|---------------------------|

                     A Major
                     Not problems like what is beauty...       'Cos that would fall within the
   Q    Q    Q       Q     E    E    E    E        H        Q       Q     E    E    E    E    
|-----------------|--------0----0----0----0---|------------------|--------0----0----0----0---|
|-----------------|--------2----2----2----2---|------------------|--------2----2----2----2---|
|-----------------|--------2----2----2----2---|------------------|--------2----2----2----2---|
|-----------------|-------(2)--(2)--(2)--(2)--|--2h4--------2----|-------(2)--(2)--(2)--(2)--|
|-----------------|--0------------------------|------------------|--0------------------------|
|--0----2----4----|---------------------------|------------------|---------------------------|


   purview of your conundrums of philosophy
   Q     E    E    E    E      Q     E    E    E    E        Q    Q    Q       Q               
|--------0----0----0----0---|--------0----0----0----0---|-------------------|----------------||
|--------2----2----2----2---|--------2----2----2----2---|-------------------|----------------||
|--------2----2----2----2---|--------2----2----2----2---|-------------------|----------------||
|-------(2)--(2)--(2)--(2)--|-------(2)--(2)--(2)--(2)--|--2h4----2----0----|--0-------------||
|---------------------------|--0------------------------|-------------------|----------------||
|--0------------------------|---------------------------|-------------------|----------------||



||-----------------------------------||
||-----------------------------------||
|[ Rest, approx. 20 beats of gunfire ]|
||-----------------------------------||
||-----------------------------------||
||-----------------------------------||

    A Major                                                                   E Major
                                For instance...             How am I gonna stop some big mean mother
    Q     E    E    E    E      Q     E    E    E    E      Q    Q    Q       Q     E    E    E    E    
||--------0----0----0----0---|--------0----0----0----0---|-----------------|--------0----0----0----0---|
||--------2----2----2----2---|--------2----2----2----2---|-----------------|--------0----0----0----0---|
||--------2----2----2----2---|--------2----2----2----2---|-----------------|--------1----1----1----1---|
||-------(2)--(2)--(2)--(2)--|-------(2)--(2)--(2)--(2)--|--2----0---------|-------(2)--(2)--(2)--(0)--|
||--0------------------------|---------------------------|------------4----|---------------------------|
||---------------------------|--0------------------------|-----------------|--0------------------------|

                                                                             A Major
   hubbard from tearing me a structurally superfluous new behind?
   Q     E    E    E    E      Q     E    E    E    E      Q    Q    Q       Q     E    E    E    E    
|--------0----0----0----0---|--------0----0----0----0---|-----------------|--------0----0----0----0---|
|--------0----0----0----0---|--------0----0----0----0---|-----------------|--------2----2----2----2---|
|--------1----1----1----1---|--------1----1----1----1---|-----------------|--------2----2----2----2---|
|-------(2)--(2)--(2)--(0)--|-------(2)--(2)--(2)--(0)--|-----------------|-------(2)--(2)--(2)--(2)--|
|--2------------------------|---------------------------|-----------------|--0------------------------|
|---------------------------|--0------------------------|--0----2----4----|---------------------------|


                               The answer...
   Q     E    E    E    E      Q     E    E    E    E      Q     E    E    E    E      Q     E    E    E    E    
|--------0----0----0----0---|--------0----0----0----0---|--------0----0----0----0---|--------0----0----0----0---|
|--------2----2----2----2---|--------2----2----2----2---|--------2----2----2----2---|--------2----2----2----2---|
|--------2----2----2----2---|--------2----2----2----2---|--------2----2----2----2---|--------2----2----2----2---|
|-------(2)--(2)--(2)--(2)--|-------(2)--(2)--(2)--(2)--|-------(2)--(2)--(2)--(2)--|-------(2)--(2)--(2)--(2)--|
|---------------------------|--0------------------------|---------------------------|--0------------------------|
|--0------------------------|---------------------------|--0------------------------|---------------------------|

                     D Major
                          ...use a gun.                           And if that
   Q    Q    Q       Q    E  E  E  E     Q    E  E  E  E     Q    E  E  E  E   
|-----------------|-------2--2--2--2--|-------2--2--2--2--|-------2--2--2--2--|
|-----------------|-------3--3--3--3--|-------3--3--3--3--|-------3--3--3--3--|
|-----------------|-------2--2--2--2--|-------2--2--2--2--|-------2--2--2--2--|
|-----------------|--0----------------|-------------------|--0----------------|
|--0----2----4----|-------------------|--0----------------|-------------------|
|-----------------|-------------------|-------------------|-------------------|


   don't work,				use more gun.
   Q    E  E  E  E     Q    E  E  E  E     Q      E            
|-------2--2--2--2--|-------2--2--2--2--|--------------------||
|-------3--3--3--3--|-------3--3--3--3--|--------------------||
|-------2--2--2--2--|-------2--2--2--2--|--------------------||
|-------------------|--0----------------|--4p----(2)---------||
|--0----------------|-------------------|--------------------||
|-------------------|-------------------|--------------------||



||-----------------------------------||
||-----------------------------------||
|[ Rest, approx. 10 beats of gunfire ]|
||-----------------------------------||
||-----------------------------------||
||-----------------------------------||

                         A Major
                                         Like this                   heavy-caliber          tripod-mounted,
      Q     Q    Q       Q     E    E    E    E      Q     E    E    E    E      Q     E    E    E    E    
||--------------------|--------0----0----0----0---|--------0----0----0----0---|--------0----0----0----0---|
||--------------------|--------2----2----2----2---|--------2----2----2----2---|--------2----2----2----2---|
||--2h4-----2---------|--------2----2----2----2---|--------2----2----2----2---|--------2----2----2----2---|
||---(4)---------4----|--2----(2)--(2)--(2)--(2)--|-------(2)--(2)--(2)--(2)--|-------(2)--(2)--(2)--(2)--|
||--------------------|--0------------------------|---------------------------|--0------------------------|
||--------------------|---------------------------|--0------------------------|---------------------------|

                               D                                     A Major
         little 'ol number     designed by me,                       built by me,
   Q     E    E    E    E      Q    E  E  E  E     Q    Q    Q       Q     E    E    E    E    
|--------0----0----0----0---|-------------------|-----------------|--------0----0----0----0---|
|--------2----2----2----2---|--7----7--7--7--7--|-----------------|--------2----2----2----2---|
|--------2----2----2----2---|--7----7--7--7--7--|-----------------|--------2----2----2----2---|
|-------(2)--(2)--(2)--(2)--|--7----7--7--7--7--|-----------------|-------(2)--(2)--(2)--(2)--|
|---------------------------|--5----------------|-----------------|--0------------------------|
|--0------------------------|-------------------|--0----2----4----|---------------------------|


                               And you'd best hope...                not pointed at you.
   Q     E    E    E    E      Q     E    E    E   E                                   
|--------0----0----0----0---|--------0----0----0------|---------------|---------------|
|--------2----2----2----2---|--------2----2----2------|---------------|---------------|
|--------2----2----2----2---|--------2----2----2------|---------------|---------------|
|-------(2)--(2)--(2)--(2)--|-------(2)--(2)--(2)-----|---------------|---------------|
|---------------------------|--0----------------------|---------------|---------------|
|--0------------------------|-------------------------|---------------|---------------|

                    A Major
            Q       Q     E    E    E    E      Q     E    E    E    E    
|----------------|--------0----0----0----0---|--------0----0----0----0---|
|----------------|--------2----2----2----2---|--------2----2----2----2---|
|----------------|--------2----2----2----2---|--------2----2----2----2---|
|----------------|-------(2)--(2)--(2)--(2)--|-------(2)--(2)--(2)--(2)--|
|----------------|--0------------------------|---------------------------|
|-----------4----|---------------------------|--0------------------------|



   Q     E    E    E    E      Q     E    E    E    E      Q     E    E    E    E     
|--------0----0----0----0---|--------0----0----0----0---|--------0----0----0----0---||
|--------2----2----2----2---|--------2----2----2----2---|--------2----2----2----2---||
|--------2----2----2----2---|--------2----2----2----2---|--------2----2----2----2---||
|-------(2)--(2)--(2)--(2)--|-------(2)--(2)--(2)--(2)--|-------(2)--(2)--(2)--(2)--||
|--0------------------------|---------------------------|--0------------------------||
|---------------------------|--0------------------------|---------------------------||