Playing With Danger (Soundtrack)

From Team Fortress Wiki
Jump to: navigation, search
Team Fortress 2
Offizieller Soundtrack
  1. "Team Fortress 2 (Main Theme)"
  2. "Playing With Danger"
  3. "Rocket Jump Waltz"
  4. "The Art of War"
  5. "Faster Than a Speeding Bullet"
  6. "Right Behind You"
  7. "Petite Chou-Fleur"
  8. "Intruder Alert"
  9. "Drunken Pipe Bomb"
  10. "More Gun"
  11. "Haunted Fortress 2"
  12. "TF2 Saxxy 2011 Theme"
  13. "A Little Heart to Heart"
  14. "MEDIC!"
  15. "Archimedes"
  16. "Dreams of Cruelty"
  17. "The Calm"
  18. "ROBOTS!"
  19. "Dapper Cadaver"
  20. "Rise of the Living Bread"
  21. "Red Bread"
  22. "Three Days to Live"
  23. "Seduce Me!"
  24. "Stink Lines"
  25. "It Hates Me So Much"
  26. "Misfortune Teller"
  27. "Soldier of Dance"
  28. "RED Triumphs!"
  29. "BLU Triumphs!"
  30. "Yeti Park"
  31. "Saxton's Dilemma"
  32. "Mercenary Park"
  33. "Saluting the Fallen"

Playing With Danger ist einer der Songtitel vom offiziellen Team Fortress 2 Soundtrack, aufgelistet als Titel Nummer zwei, sowie Titel drei der offiziellen Orange Box Soundtracks. Dieses Lied läuft in Vorschau 2 und ist eines der 32 Hauptmenü Start-Up Songtiteln. Playing With Danger ist das Lied, das in mehreren Einführungsvideos von Maps läuft.

Wie einige andere Soundtracks auch nutzt Playing With Danger die selben Akkorde und Melodie wie der Team Fortress 2 (Main Theme).

Video

Gitarrenumsetzung

Der folgende Text ist eine Interpretation der Gitarrentabulator des Songs.

    Playing With Danger                 
    4/4 | Tempo = 96          
(c) Mike Morasky / VALVe 2007                   

					         E-Dur
                                              
       
e ||--------------------------|--------------------------|--------------------------|------------------------------|
B ||--------------------------|--------------------------|--------------------------|------------------------------|
G ||--------------------------|--------------------------|--------------------------|------------------------------|
D ||--------------------------|--------------------------|--------------------------|------------------------------|
A ||--------------------------|--------------------------|--------------------------|------------------------------|
E ||--0--0--0--3--3--3--0--0--|--------------6--6--5--5--|--0--0--0--3--3--3--0--0--|--0--7--7--7--5--5--5b6--5b7--|
 
      
    --------------------------|------------------------|
    --------------------------|------------------------|
    --------------------------|------------------------|
    --------------------------|------------------------|
    --------------------------|------------------------|
    --0--0--0--3--3--3--0--0--|--0--7--7--7--6--6--5--5|
    
                                               
                                Tremolo/Vibrato
    --------------------------|------------------------|
    --------------------------|------------------3--2--|
    --4--3---------2--3--4--3-|--4--3------2--3--------|
    --------------------------|------------------------|
    --------------------------|------------------------|
    --------------------------|------------------------|

                                                    

                                Klavier
    -------------------------------|-----------------------10--9---|--9--8------13--12--|
    --12--11-------12--11--12--11--|--12--11-------12--11----------|--------11----------|
    -------------------------------|-------------------------------|--------------------|
    -------------------------------|-------------------------------|--------------------|
    -------------------------------|-------------------------------|--------------------|
    -------------------------------|-------------------------------|--------------------|