Team Fortress 2 (главная тема, саундтрек)

From Team Fortress Wiki
Jump to: navigation, search
Team Fortress 2
Официальный саундтрек
  1. "Team Fortress 2 (главная тема)"
  2. "Playing With Danger"
  3. "Rocket Jump Waltz"
  4. "The Art of War"
  5. "Faster Than a Speeding Bullet"
  6. "Right Behind You"
  7. "Petite Chou-Fleur"
  8. "Intruder Alert"
  9. "Drunken Pipe Bomb"
  10. "More Gun"
  11. "Haunted Fortress 2"
  12. "TF2 Saxxy 2011 Theme"
  13. "A Little Heart to Heart"
  14. "MEDIC!"
  15. "Archimedes"
  16. "Dreams of Cruelty"
  17. "The Calm"
  18. "ROBOTS!"
  19. "Dapper Cadaver"
  20. "Rise of the Living Bread"
  21. "Red Bread"
  22. "Three Days to Live"
  23. "Seduce Me!"
  24. "Stink Lines"
  25. "It Hates Me So Much"
  26. "Misfortune Teller"
  27. "Soldier of Dance"
  28. "RED Triumphs!"
  29. "BLU Triumphs!"
  30. "Yeti Park"
  31. "Saxton's Dilemma"
  32. "Mercenary Park"
  33. "Saluting the Fallen"

Композиция Team Fortress 2 входит в официальный саундтрек Team Fortress 2 под номером один и в сборник The Orange Box Original Soundtrack под номером два. Это «заглавная тема» всей игры, ее визитная карточка. Ее можно услышать в ролике «Представляем класс Пулеметчик» (фанфары в конце каждого ролика «Представляем класс»), первом трейлере; она также включена в список из 32 треков, играющих в главном меню игры. Блюзовая обработка включена в саундтрек игры Poker Night at the Inventory.

Видео

Гитарная табулатура

Ниже представлена сокращенная табулатура мелодии. Бас-гитара использует ту же самую табулатуру, начиная играть после вступления.

Main Theme     
                    | 
time = 4/4 130bpm   | 
Standard E-tuning   | 
(c) Mike Morasky / VALVe 2007                   

					E Major with chromatic shifts down to Eb Major
       Intro                                    Fig. 1                     Fig. 2
e ||----------------------------------------|--------------------------|-------------------------------|
B ||----------------------------------------|--------------------------|-------------------------------|
G ||----------------------------------------|--------------------------|-------------------------------|
D ||----------------------------------------|--------------------------|-------------------------------|
A ||----------------------------------------|--------------------------|-------------------------------|
E ||--5h-777-5h-777-5h-777-777-7--6--5--3---|--0--0--0--3--3--3--0--0--|--0--7--7--7--5--5--5b6--5b7---|
      8th-16th notes                              8th notes                        gradually bend up
  Tremolo picking with slight gallop          slight accent on 2

    Intro Alternative 
|----------------------------------------|
|----------------------------------------|
|----------------------------------------|
|--1h-222-1h-222-1h-222-222-2--1--0------|
|------------------------------------3---|

    Fig. 1                   Fig. 3                      Fig. 1                     Fig. 4
|------------------------|---------------------------|--------------------------|---------------------------|
|------------------------|---------------------------|--------------------------|---------------------------|
|------------------------|---------------------------|--------------------------|---------------------------|
|------------------------|---------------------------|--------------------------|---------------------------|
|------------------------|---------------------------|--------------------------|---------------------------|
|--0--0--0--3--3--3--0--0|--0--7--7--7--6--6--5--5---|--0--0--0--3--3--3--0--0--|--0--0--1--1--2--2--3--3---|

Факты

  • Одной из определяющих особенностей композиции является отчетливый полутон в конце каждой фразы. Этот же полутон определяет разницу между звуками доминирования (восходящий) и мести (нисходящий).
  • Концовка данной композиции используется в выигранном раунде.
  • Некоторые отрывки данного саундтрека можно услышать при повышении уровня в обычном режиме.